Make your own free website on Tripod.com

 

INTRO

E |------------------------------------------------------------|

B |------------------------------------------------------------|

G |------------------------------------------------------------| X2

D |-------7-/-8-------10-\-9------7-/-8-------6-\-5--------|

A |--X---5-/-6--X---8--\-7--X--5-/-6--X---4-\-3--------|

E |--X-----------X------------X----------X----------------|

 

E |---------------------------------------------------------|

B |---------------------------------------------------------|

G |---------------------------------------------------------| X4

D |------7-/-8------10-\--9------7-/-8------6-\-5-------|

A |--X--5-/-6--X---8-\--7--X--5-/-6--X--4-\-3-------|

E |--X--5-/-6--X---8--\-7--X--5-/-6--X--4-\-3-------|

 

VERSE

E |------------------------------------------------|

B |------------------------------------------------|

G |------------------------------------------------|

D |--7--7-------10--7-/-9-----7--7---10-------|

A |--5--5-------10--5-/-7-----5--5---10-------|

E |--5--5--------8---5-/-7-----5--5----8-------|

 

 

"UNDER SKIN......LEFT WITHIN....."

E |---------------------------------------------|

B |---------------------------------------------|

G |---------------------------------------------|

D |--7-7-7-7--10-10-10---7-7-7-9-9---------|

A |--5-5-5-5--10-10-10---5-5-5-7-7---------|

E |--5-5-5-5---8--8---8----5-5-5-7-7--------|