Make your own free website on Tripod.com

 

INTRO

E |-----------------------------------------------------------|

B |-----------------------------------------------------------|

G |-----------------------------------------------------------|

D |--5-/--7--7---5---7--7----------5-/--7--7-----5---8---|

A |--3-/--5--5---3---5--5----------3-/--5--5-----3---6---|

E |------------------------------------------------------------|

 

 

CHORUS

"YOU SERVE THE SHAME...."

E |-------------------------------------------|

B |-------------------------------------------|

G |-------------------------------------------|

D |-------------7--7--7----------------------|

A |--3--5------5--5--5----------------------|

E |--1--3------5--5--5-----------------------|

 

 

E |--0----0-------------------------------------------|

B |--3---------3--------------------------------------|

G |--2-------------2----------------------------------|

D |--0----------------------------------7-7-7-7------|

A |--0------------------3----5------6--5-5-5-5--6--|

E |----------------------1----3------4--5-5-5-5--4--|